ISO-10303-21;
HEADER;
FILE_DESCRIPTION (( 'STEP AP203' ),
    '1' );
FILE_NAME ('BK7-LNPBSP-25.4-633.STEP',
    '2020-12-22T04:12:21',
    ( '' ),
    ( '' ),
    'SwSTEP 2.0',
    'SolidWorks 2020',
    '' );
FILE_SCHEMA (( 'CONFIG_CONTROL_DESIGN' ));
ENDSEC;

DATA;
#1 = CARTESIAN_POINT ( 'NONE',  ( 2.999999999999998224, 0.000000000000000000, 0.000000000000000000 ) ) ;
#2 = PERSON_AND_ORGANIZATION ( #158, #128 ) ;
#3 = PERSON_AND_ORGANIZATION ( #158, #128 ) ;
#4 = DIRECTION ( 'NONE',  ( -1.000000000000000000, -0.000000000000000000, -0.000000000000000000 ) ) ;
#5 = FACE_OUTER_BOUND ( 'NONE', #87, .T. ) ;
#6 = CC_DESIGN_DATE_AND_TIME_ASSIGNMENT ( #92, #120, ( #9 ) ) ;
#7 = LINE ( 'NONE', #19, #160 ) ;
#8 = ADVANCED_FACE ( 'NONE', ( #32 ), #121, .T. ) ;
#9 = SECURITY_CLASSIFICATION ( '', '', #88 ) ;
#10 = CALENDAR_DATE ( 2020, 22, 12 ) ;
#11 = VERTEX_POINT ( 'NONE', #135 ) ;
#12 = PERSON_AND_ORGANIZATION_ROLE ( 'creator' ) ;
#13 = CARTESIAN_POINT ( 'NONE',  ( -1.187907395172932594E-15, 0.000000000000000000, 0.000000000000000000 ) ) ;
#14 = PERSON_AND_ORGANIZATION ( #158, #128 ) ;
#15 = DIRECTION ( 'NONE',  ( -1.000000000000000000, -0.000000000000000000, -0.000000000000000000 ) ) ;
#16 = AXIS2_PLACEMENT_3D ( 'NONE', #1, #15, #76 ) ;
#17 = EDGE_CURVE ( 'NONE', #93, #144, #101, .T. ) ;
#18 =( NAMED_UNIT ( * ) SI_UNIT ( $, .STERADIAN. ) SOLID_ANGLE_UNIT ( ) );
#19 = CARTESIAN_POINT ( 'NONE',  ( 0.000000000000000000, 1.555301434917138433E-15, -12.69999999999999929 ) ) ;
#20 =( NAMED_UNIT ( * ) PLANE_ANGLE_UNIT ( ) SI_UNIT ( $, .RADIAN. ) );
#21 = CC_DESIGN_PERSON_AND_ORGANIZATION_ASSIGNMENT ( #2, #12, ( #175 ) ) ;
#22 = CARTESIAN_POINT ( 'NONE',  ( 2.999999999999998224, 0.000000000000000000, 0.000000000000000000 ) ) ;
#23 = APPLICATION_PROTOCOL_DEFINITION ( 'international standard', 'config_control_design', 1994, #146 ) ;
#24 = APPROVAL ( #96, 'UNSPECIFIED' ) ;
#25 = CALENDAR_DATE ( 2020, 22, 12 ) ;
#26 = ORIENTED_EDGE ( 'NONE', *, *, #100, .T. ) ;
#27 = PERSON_AND_ORGANIZATION ( #158, #128 ) ;
#28 = CIRCLE ( 'NONE', #51, 12.69999999999999929 ) ;
#29 = ORIENTED_EDGE ( 'NONE', *, *, #39, .T. ) ;
#30 = PERSON_AND_ORGANIZATION ( #158, #128 ) ;
#31 = CC_DESIGN_PERSON_AND_ORGANIZATION_ASSIGNMENT ( #147, #69, ( #9 ) ) ;
#32 = FACE_OUTER_BOUND ( 'NONE', #171, .T. ) ;
#33 = APPROVAL ( #136, 'UNSPECIFIED' ) ;
#34 = CARTESIAN_POINT ( 'NONE',  ( 0.000000000000000000, 0.000000000000000000, 0.000000000000000000 ) ) ;
#35 = CARTESIAN_POINT ( 'NONE',  ( 0.000000000000000000, 0.000000000000000000, 12.69999999999999929 ) ) ;
#36 = EDGE_CURVE ( 'NONE', #132, #11, #110, .T. ) ;
#37 = MECHANICAL_CONTEXT ( 'NONE', #146, 'mechanical' ) ;
#38 = CC_DESIGN_APPROVAL ( #24, ( #175 ) ) ;
#39 = EDGE_CURVE ( 'NONE', #11, #132, #137, .T. ) ;
#40 = COORDINATED_UNIVERSAL_TIME_OFFSET ( 8, 0, .AHEAD. ) ;
#41 = ORIENTED_EDGE ( 'NONE', *, *, #100, .F. ) ;
#42 = APPLICATION_PROTOCOL_DEFINITION ( 'international standard', 'config_control_design', 1994, #106 ) ;
#43 = DIRECTION ( 'NONE',  ( 0.000000000000000000, 0.000000000000000000, 1.000000000000000000 ) ) ;
#44 = EDGE_CURVE ( 'NONE', #144, #132, #64, .T. ) ;
#45 = PERSON_AND_ORGANIZATION_ROLE ( 'creator' ) ;
#46 = CALENDAR_DATE ( 2020, 22, 12 ) ;
#47 = DIRECTION ( 'NONE',  ( 1.000000000000000000, 0.000000000000000000, 0.000000000000000000 ) ) ;
#48 = DIRECTION ( 'NONE',  ( 0.000000000000000000, 0.000000000000000000, 1.000000000000000000 ) ) ;
#49 = CARTESIAN_POINT ( 'NONE',  ( 2.999999999999999112, 12.69999999999999929, 0.000000000000000000 ) ) ;
#50 = DIRECTION ( 'NONE',  ( -1.000000000000000000, -0.000000000000000000, -0.000000000000000000 ) ) ;
#51 = AXIS2_PLACEMENT_3D ( 'NONE', #22, #4, #48 ) ;
#52 = UNCERTAINTY_MEASURE_WITH_UNIT (LENGTH_MEASURE( 1.000000000000000082E-05 ), #154, 'distance_accuracy_value', 'NONE');
#53 = DATE_AND_TIME ( #10, #61 ) ;
#54 = CARTESIAN_POINT ( 'NONE',  ( 0.000000000000000000, 0.000000000000000000, 0.000000000000000000 ) ) ;
#55 = PRODUCT_DEFINITION ( 'UNKNOWN', '', #175, #105 ) ;
#56 = ORIENTED_EDGE ( 'NONE', *, *, #44, .F. ) ;
#57 = PERSON_AND_ORGANIZATION_ROLE ( 'design_supplier' ) ;
#58 = PRODUCT ( 'BK7-LNPBSP-25.4-633', 'BK7-LNPBSP-25.4-633', '', ( #37 ) ) ;
#59 = ORIENTED_EDGE ( 'NONE', *, *, #17, .F. ) ;
#60 = ADVANCED_BREP_SHAPE_REPRESENTATION ( 'BK7-LNPBSP-25.4-633', ( #131, #113 ), #141 ) ;
#61 = LOCAL_TIME ( 12, 12, 21.00000000000000000, #119 ) ;
#62 = CC_DESIGN_DATE_AND_TIME_ASSIGNMENT ( #53, #145, ( #55 ) ) ;
#63 = CC_DESIGN_SECURITY_CLASSIFICATION ( #9, ( #175 ) ) ;
#64 = LINE ( 'NONE', #35, #66 ) ;
#65 = CARTESIAN_POINT ( 'NONE',  ( 0.000000000000000000, 0.000000000000000000, 0.000000000000000000 ) ) ;
#66 = VECTOR ( 'NONE', #168, 1000.000000000000000 ) ;
#67 = ADVANCED_FACE ( 'NONE', ( #114 ), #169, .F. ) ;
#68 = APPROVAL_PERSON_ORGANIZATION ( #30, #90, #77 ) ;
#69 = PERSON_AND_ORGANIZATION_ROLE ( 'classification_officer' ) ;
#70 = DATE_AND_TIME ( #46, #152 ) ;
#71 = ORIENTED_EDGE ( 'NONE', *, *, #36, .F. ) ;
#72 = DATE_AND_TIME ( #25, #167 ) ;
#73 = AXIS2_PLACEMENT_3D ( 'NONE', #13, #74, #153 ) ;
#74 = DIRECTION ( 'NONE',  ( -1.000000000000000000, -0.000000000000000000, -0.000000000000000000 ) ) ;
#75 = APPROVAL_STATUS ( 'not_yet_approved' ) ;
#76 = DIRECTION ( 'NONE',  ( 0.000000000000000000, 0.000000000000000000, 1.000000000000000000 ) ) ;
#77 = APPROVAL_ROLE ( '' ) ;
#78 = DIRECTION ( 'NONE',  ( -1.000000000000000000, 0.000000000000000000, -0.000000000000000000 ) ) ;
#79 = LOCAL_TIME ( 12, 12, 21.00000000000000000, #108 ) ;
#80 = FACE_OUTER_BOUND ( 'NONE', #123, .T. ) ;
#81 = EDGE_CURVE ( 'NONE', #93, #11, #7, .T. ) ;
#82 = CARTESIAN_POINT ( 'NONE',  ( -5.939536975864662969E-16, 12.69999999999999929, 0.000000000000000000 ) ) ;
#83 = AXIS2_PLACEMENT_3D ( 'NONE', #54, #103, #85 ) ;
#84 = CALENDAR_DATE ( 2020, 22, 12 ) ;
#85 = DIRECTION ( 'NONE',  ( 0.000000000000000000, 0.000000000000000000, 1.000000000000000000 ) ) ;
#86 = APPROVAL_ROLE ( '' ) ;
#87 = EDGE_LOOP ( 'NONE', ( #107, #29 ) ) ;
#88 = SECURITY_CLASSIFICATION_LEVEL ( 'unclassified' ) ;
#89 = CC_DESIGN_PERSON_AND_ORGANIZATION_ASSIGNMENT ( #162, #164, ( #58 ) ) ;
#90 = APPROVAL ( #75, 'UNSPECIFIED' ) ;
#91 = PLANE ( 'NONE',  #155 ) ;
#92 = DATE_AND_TIME ( #94, #79 ) ;
#93 = VERTEX_POINT ( 'NONE', #112 ) ;
#94 = CALENDAR_DATE ( 2020, 22, 12 ) ;
#95 = EDGE_LOOP ( 'NONE', ( #41, #59 ) ) ;
#96 = APPROVAL_STATUS ( 'not_yet_approved' ) ;
#97 = CC_DESIGN_APPROVAL ( #33, ( #9 ) ) ;
#98 = LOCAL_TIME ( 12, 12, 21.00000000000000000, #40 ) ;
#99 = DIRECTION ( 'NONE',  ( 0.000000000000000000, 0.000000000000000000, 1.000000000000000000 ) ) ;
#100 = EDGE_CURVE ( 'NONE', #144, #93, #28, .T. ) ;
#101 = CIRCLE ( 'NONE', #16, 12.69999999999999929 ) ;
#102 = DATE_AND_TIME ( #84, #98 ) ;
#103 = DIRECTION ( 'NONE',  ( -1.000000000000000000, -0.000000000000000000, -0.000000000000000000 ) ) ;
#104 = APPROVAL_PERSON_ORGANIZATION ( #27, #33, #86 ) ;
#105 = DESIGN_CONTEXT ( 'detailed design', #106, 'design' ) ;
#106 = APPLICATION_CONTEXT ( 'configuration controlled 3d designs of mechanical parts and assemblies' ) ;
#107 = ORIENTED_EDGE ( 'NONE', *, *, #36, .T. ) ;
#108 = COORDINATED_UNIVERSAL_TIME_OFFSET ( 8, 0, .AHEAD. ) ;
#109 = ORIENTED_EDGE ( 'NONE', *, *, #39, .F. ) ;
#110 = CIRCLE ( 'NONE', #130, 12.69999999999999929 ) ;
#111 = CC_DESIGN_APPROVAL ( #90, ( #55 ) ) ;
#112 = CARTESIAN_POINT ( 'NONE',  ( 2.999999999999998224, 1.555301434917138433E-15, -12.69999999999999929 ) ) ;
#113 = AXIS2_PLACEMENT_3D ( 'NONE', #65, #116, #157 ) ;
#114 = FACE_OUTER_BOUND ( 'NONE', #95, .T. ) ;
#115 = AXIS2_PLACEMENT_3D ( 'NONE', #49, #78, #142 ) ;
#116 = DIRECTION ( 'NONE',  ( 0.000000000000000000, 0.000000000000000000, 1.000000000000000000 ) ) ;
#117 = ADVANCED_FACE ( 'NONE', ( #5 ), #91, .F. ) ;
#118 = CC_DESIGN_PERSON_AND_ORGANIZATION_ASSIGNMENT ( #3, #45, ( #55 ) ) ;
#119 = COORDINATED_UNIVERSAL_TIME_OFFSET ( 8, 0, .AHEAD. ) ;
#120 = DATE_TIME_ROLE ( 'classification_date' ) ;
#121 = CYLINDRICAL_SURFACE ( 'NONE', #83, 12.69999999999999929 ) ;
#122 = APPROVAL_DATE_TIME ( #72, #33 ) ;
#123 = EDGE_LOOP ( 'NONE', ( #26, #125, #71, #56 ) ) ;
#124 = APPROVAL_DATE_TIME ( #102, #24 ) ;
#125 = ORIENTED_EDGE ( 'NONE', *, *, #81, .T. ) ;
#126 = APPROVAL_DATE_TIME ( #70, #90 ) ;
#127 = CYLINDRICAL_SURFACE ( 'NONE', #172, 12.69999999999999929 ) ;
#128 = ORGANIZATION ( 'UNSPECIFIED', 'UNSPECIFIED', '' ) ;
#129 = CARTESIAN_POINT ( 'NONE',  ( 2.999999999999998224, 0.000000000000000000, 12.69999999999999929 ) ) ;
#130 = AXIS2_PLACEMENT_3D ( 'NONE', #163, #165, #43 ) ;
#131 = MANIFOLD_SOLID_BREP ( 'Ðý×', #134 ) ;
#132 = VERTEX_POINT ( 'NONE', #139 ) ;
#133 = COORDINATED_UNIVERSAL_TIME_OFFSET ( 8, 0, .AHEAD. ) ;
#134 = CLOSED_SHELL ( 'NONE', ( #170, #8, #67, #117 ) ) ;
#135 = CARTESIAN_POINT ( 'NONE',  ( -1.187907395172932594E-15, 1.555301434917138433E-15, -12.69999999999999929 ) ) ;
#136 = APPROVAL_STATUS ( 'not_yet_approved' ) ;
#137 = CIRCLE ( 'NONE', #73, 12.69999999999999929 ) ;
#138 = PRODUCT_DEFINITION_SHAPE ( 'NONE', 'NONE',  #55 ) ;
#139 = CARTESIAN_POINT ( 'NONE',  ( -1.187907395172932594E-15, 0.000000000000000000, 12.69999999999999929 ) ) ;
#140 = DIRECTION ( 'NONE',  ( -1.000000000000000000, -0.000000000000000000, -0.000000000000000000 ) ) ;
#141 =( GEOMETRIC_REPRESENTATION_CONTEXT ( 3 ) GLOBAL_UNCERTAINTY_ASSIGNED_CONTEXT ( ( #52 ) ) GLOBAL_UNIT_ASSIGNED_CONTEXT ( ( #154, #20, #18 ) ) REPRESENTATION_CONTEXT ( 'NONE', 'WORKASPACE' ) );
#142 = DIRECTION ( 'NONE',  ( -0.000000000000000000, 0.000000000000000000, 1.000000000000000000 ) ) ;
#143 = COORDINATED_UNIVERSAL_TIME_OFFSET ( 8, 0, .AHEAD. ) ;
#144 = VERTEX_POINT ( 'NONE', #129 ) ;
#145 = DATE_TIME_ROLE ( 'creation_date' ) ;
#146 = APPLICATION_CONTEXT ( 'configuration controlled 3d designs of mechanical parts and assemblies' ) ;
#147 = PERSON_AND_ORGANIZATION ( #158, #128 ) ;
#148 = PRODUCT_RELATED_PRODUCT_CATEGORY ( 'detail', '', ( #58 ) ) ;
#149 = ORIENTED_EDGE ( 'NONE', *, *, #44, .T. ) ;
#150 = APPROVAL_ROLE ( '' ) ;
#151 = DIRECTION ( 'NONE',  ( 0.000000000000000000, 0.000000000000000000, -1.000000000000000000 ) ) ;
#152 = LOCAL_TIME ( 12, 12, 21.00000000000000000, #133 ) ;
#153 = DIRECTION ( 'NONE',  ( 0.000000000000000000, 0.000000000000000000, 1.000000000000000000 ) ) ;
#154 =( LENGTH_UNIT ( ) NAMED_UNIT ( * ) SI_UNIT ( .MILLI., .METRE. ) );
#155 = AXIS2_PLACEMENT_3D ( 'NONE', #82, #47, #151 ) ;
#156 = APPROVAL_PERSON_ORGANIZATION ( #14, #24, #150 ) ;
#157 = DIRECTION ( 'NONE',  ( 1.000000000000000000, 0.000000000000000000, 0.000000000000000000 ) ) ;
#158 = PERSON ( 'UNSPECIFIED', 'UNSPECIFIED', 'UNSPECIFIED', ('UNSPECIFIED'), ('UNSPECIFIED'), ('UNSPECIFIED') ) ;
#159 = PERSON_AND_ORGANIZATION ( #158, #128 ) ;
#160 = VECTOR ( 'NONE', #50, 1000.000000000000000 ) ;
#161 = ORIENTED_EDGE ( 'NONE', *, *, #81, .F. ) ;
#162 = PERSON_AND_ORGANIZATION ( #158, #128 ) ;
#163 = CARTESIAN_POINT ( 'NONE',  ( -1.187907395172932594E-15, 0.000000000000000000, 0.000000000000000000 ) ) ;
#164 = PERSON_AND_ORGANIZATION_ROLE ( 'design_owner' ) ;
#165 = DIRECTION ( 'NONE',  ( -1.000000000000000000, -0.000000000000000000, -0.000000000000000000 ) ) ;
#166 = CC_DESIGN_PERSON_AND_ORGANIZATION_ASSIGNMENT ( #159, #57, ( #175 ) ) ;
#167 = LOCAL_TIME ( 12, 12, 21.00000000000000000, #143 ) ;
#168 = DIRECTION ( 'NONE',  ( -1.000000000000000000, -0.000000000000000000, -0.000000000000000000 ) ) ;
#169 = PLANE ( 'NONE',  #115 ) ;
#170 = ADVANCED_FACE ( 'NONE', ( #80 ), #127, .T. ) ;
#171 = EDGE_LOOP ( 'NONE', ( #161, #173, #149, #109 ) ) ;
#172 = AXIS2_PLACEMENT_3D ( 'NONE', #34, #140, #99 ) ;
#173 = ORIENTED_EDGE ( 'NONE', *, *, #17, .T. ) ;
#174 = SHAPE_DEFINITION_REPRESENTATION ( #138, #60 ) ;
#175 = PRODUCT_DEFINITION_FORMATION_WITH_SPECIFIED_SOURCE ( 'ANY', '', #58, .NOT_KNOWN. ) ;
ENDSEC;
END-ISO-10303-21;
